ISO-10303-21;
HEADER;
/* Generated by software containing ST-Developer
 * from STEP Tools, Inc. (www.steptools.com) 
 */
/* OPTION: using custom renumber hook */

FILE_DESCRIPTION(
/* description */ ('STEP AP203'),
/* implementation_level */ '2;1');

FILE_NAME(
/* name */ 'LMTF6LUU',
/* time_stamp */ '2022-08-20T09:36:47+02:00',
/* author */ ('License CC BY-ND 4.0'),
/* organization */ ('CADENAS'),
/* preprocessor_version */ 'ST-DEVELOPER v18.102',
/* originating_system */ 'PARTsolutions',
/* authorisation */ '  ');

FILE_SCHEMA (('CONFIG_CONTROL_DESIGN'));
ENDSEC;

DATA;
#10=PROPERTY_DEFINITION_REPRESENTATION(#14,#12);
#11=PROPERTY_DEFINITION_REPRESENTATION(#15,#13);
#12=REPRESENTATION('',(#16),#673);
#13=REPRESENTATION('',(#17),#673);
#14=PROPERTY_DEFINITION('pmi validation property','',#678);
#15=PROPERTY_DEFINITION('pmi validation property','',#678);
#16=VALUE_REPRESENTATION_ITEM('number of annotations',COUNT_MEASURE(0.));
#17=VALUE_REPRESENTATION_ITEM('number of views',COUNT_MEASURE(0.));
#18=SHAPE_REPRESENTATION_RELATIONSHIP('','',#386,#19);
#19=ADVANCED_BREP_SHAPE_REPRESENTATION('',(#384),#673);
#20=CYLINDRICAL_SURFACE('',#402,14.);
#21=CYLINDRICAL_SURFACE('',#412,6.);
#22=CYLINDRICAL_SURFACE('',#413,1.75000000000006);
#23=CYLINDRICAL_SURFACE('',#417,3.);
#24=CYLINDRICAL_SURFACE('',#418,1.75000000000006);
#25=CYLINDRICAL_SURFACE('',#422,3.);
#26=CYLINDRICAL_SURFACE('',#423,1.75000000000006);
#27=CYLINDRICAL_SURFACE('',#427,3.);
#28=CYLINDRICAL_SURFACE('',#428,1.75000000000006);
#29=CYLINDRICAL_SURFACE('',#432,3.);
#30=CYLINDRICAL_SURFACE('',#436,3.20000000000001);
#31=CYLINDRICAL_SURFACE('',#437,3.4);
#32=CYLINDRICAL_SURFACE('',#441,3.);
#33=CYLINDRICAL_SURFACE('',#443,3.2);
#34=CYLINDRICAL_SURFACE('',#447,3.4);
#35=CONICAL_SURFACE('',#400,13.5,0.785398163397506);
#36=CONICAL_SURFACE('',#404,14.,0.785398163397393);
#37=PLANE('',#391);
#38=PLANE('',#393);
#39=PLANE('',#406);
#40=PLANE('',#415);
#41=PLANE('',#420);
#42=PLANE('',#425);
#43=PLANE('',#430);
#44=PLANE('',#433);
#45=PLANE('',#439);
#46=PLANE('',#445);
#47=PLANE('',#449);
#48=ORIENTED_EDGE('',*,*,#114,.T.);
#49=ORIENTED_EDGE('',*,*,#115,.F.);
#50=ORIENTED_EDGE('',*,*,#116,.T.);
#51=ORIENTED_EDGE('',*,*,#114,.F.);
#52=ORIENTED_EDGE('',*,*,#117,.T.);
#53=ORIENTED_EDGE('',*,*,#118,.T.);
#54=ORIENTED_EDGE('',*,*,#119,.F.);
#55=ORIENTED_EDGE('',*,*,#120,.F.);
#56=ORIENTED_EDGE('',*,*,#121,.F.);
#57=ORIENTED_EDGE('',*,*,#122,.F.);
#58=ORIENTED_EDGE('',*,*,#123,.T.);
#59=ORIENTED_EDGE('',*,*,#117,.F.);
#60=ORIENTED_EDGE('',*,*,#124,.T.);
#61=ORIENTED_EDGE('',*,*,#123,.F.);
#62=ORIENTED_EDGE('',*,*,#125,.T.);
#63=ORIENTED_EDGE('',*,*,#124,.F.);
#64=ORIENTED_EDGE('',*,*,#126,.T.);
#65=ORIENTED_EDGE('',*,*,#127,.T.);
#66=ORIENTED_EDGE('',*,*,#128,.T.);
#67=ORIENTED_EDGE('',*,*,#129,.T.);
#68=ORIENTED_EDGE('',*,*,#130,.T.);
#69=ORIENTED_EDGE('',*,*,#125,.F.);
#70=ORIENTED_EDGE('',*,*,#115,.T.);
#71=ORIENTED_EDGE('',*,*,#126,.F.);
#72=ORIENTED_EDGE('',*,*,#131,.T.);
#73=ORIENTED_EDGE('',*,*,#127,.F.);
#74=ORIENTED_EDGE('',*,*,#132,.T.);
#75=ORIENTED_EDGE('',*,*,#131,.F.);
#76=ORIENTED_EDGE('',*,*,#118,.F.);
#77=ORIENTED_EDGE('',*,*,#132,.F.);
#78=ORIENTED_EDGE('',*,*,#133,.T.);
#79=ORIENTED_EDGE('',*,*,#130,.F.);
#80=ORIENTED_EDGE('',*,*,#134,.T.);
#81=ORIENTED_EDGE('',*,*,#133,.F.);
#82=ORIENTED_EDGE('',*,*,#121,.T.);
#83=ORIENTED_EDGE('',*,*,#134,.F.);
#84=ORIENTED_EDGE('',*,*,#135,.T.);
#85=ORIENTED_EDGE('',*,*,#129,.F.);
#86=ORIENTED_EDGE('',*,*,#136,.T.);
#87=ORIENTED_EDGE('',*,*,#135,.F.);
#88=ORIENTED_EDGE('',*,*,#120,.T.);
#89=ORIENTED_EDGE('',*,*,#136,.F.);
#90=ORIENTED_EDGE('',*,*,#137,.T.);
#91=ORIENTED_EDGE('',*,*,#128,.F.);
#92=ORIENTED_EDGE('',*,*,#138,.T.);
#93=ORIENTED_EDGE('',*,*,#137,.F.);
#94=ORIENTED_EDGE('',*,*,#119,.T.);
#95=ORIENTED_EDGE('',*,*,#138,.F.);
#96=ORIENTED_EDGE('',*,*,#139,.T.);
#97=ORIENTED_EDGE('',*,*,#140,.F.);
#98=ORIENTED_EDGE('',*,*,#122,.T.);
#99=ORIENTED_EDGE('',*,*,#139,.F.);
#100=ORIENTED_EDGE('',*,*,#140,.T.);
#101=ORIENTED_EDGE('',*,*,#141,.F.);
#102=ORIENTED_EDGE('',*,*,#141,.T.);
#103=ORIENTED_EDGE('',*,*,#142,.F.);
#104=ORIENTED_EDGE('',*,*,#142,.T.);
#105=ORIENTED_EDGE('',*,*,#143,.F.);
#106=ORIENTED_EDGE('',*,*,#144,.T.);
#107=ORIENTED_EDGE('',*,*,#116,.F.);
#108=ORIENTED_EDGE('',*,*,#145,.T.);
#109=ORIENTED_EDGE('',*,*,#144,.F.);
#110=ORIENTED_EDGE('',*,*,#146,.T.);
#111=ORIENTED_EDGE('',*,*,#145,.F.);
#112=ORIENTED_EDGE('',*,*,#143,.T.);
#113=ORIENTED_EDGE('',*,*,#146,.F.);
#114=EDGE_CURVE('',#147,#147,#180,.T.);
#115=EDGE_CURVE('',#148,#148,#181,.T.);
#116=EDGE_CURVE('',#149,#149,#182,.T.);
#117=EDGE_CURVE('',#150,#150,#183,.T.);
#118=EDGE_CURVE('',#151,#151,#184,.F.);
#119=EDGE_CURVE('',#152,#152,#185,.T.);
#120=EDGE_CURVE('',#153,#153,#186,.T.);
#121=EDGE_CURVE('',#154,#154,#187,.T.);
#122=EDGE_CURVE('',#155,#155,#188,.T.);
#123=EDGE_CURVE('',#156,#156,#189,.T.);
#124=EDGE_CURVE('',#157,#157,#190,.T.);
#125=EDGE_CURVE('',#158,#158,#191,.T.);
#126=EDGE_CURVE('',#159,#159,#192,.T.);
#127=EDGE_CURVE('',#160,#160,#193,.F.);
#128=EDGE_CURVE('',#161,#161,#194,.T.);
#129=EDGE_CURVE('',#162,#162,#195,.T.);
#130=EDGE_CURVE('',#163,#163,#196,.T.);
#131=EDGE_CURVE('',#164,#164,#197,.T.);
#132=EDGE_CURVE('',#165,#165,#198,.T.);
#133=EDGE_CURVE('',#166,#166,#199,.T.);
#134=EDGE_CURVE('',#167,#167,#200,.T.);
#135=EDGE_CURVE('',#168,#168,#201,.T.);
#136=EDGE_CURVE('',#169,#169,#202,.T.);
#137=EDGE_CURVE('',#170,#170,#203,.T.);
#138=EDGE_CURVE('',#171,#171,#204,.T.);
#139=EDGE_CURVE('',#172,#172,#205,.T.);
#140=EDGE_CURVE('',#173,#173,#206,.T.);
#141=EDGE_CURVE('',#174,#174,#207,.T.);
#142=EDGE_CURVE('',#175,#175,#208,.T.);
#143=EDGE_CURVE('',#176,#176,#209,.T.);
#144=EDGE_CURVE('',#177,#177,#210,.T.);
#145=EDGE_CURVE('',#178,#178,#211,.T.);
#146=EDGE_CURVE('',#179,#179,#212,.T.);
#147=VERTEX_POINT('',#579);
#148=VERTEX_POINT('',#581);
#149=VERTEX_POINT('',#584);
#150=VERTEX_POINT('',#587);
#151=VERTEX_POINT('',#589);
#152=VERTEX_POINT('',#591);
#153=VERTEX_POINT('',#593);
#154=VERTEX_POINT('',#595);
#155=VERTEX_POINT('',#597);
#156=VERTEX_POINT('',#600);
#157=VERTEX_POINT('',#603);
#158=VERTEX_POINT('',#606);
#159=VERTEX_POINT('',#609);
#160=VERTEX_POINT('',#611);
#161=VERTEX_POINT('',#613);
#162=VERTEX_POINT('',#615);
#163=VERTEX_POINT('',#617);
#164=VERTEX_POINT('',#621);
#165=VERTEX_POINT('',#624);
#166=VERTEX_POINT('',#628);
#167=VERTEX_POINT('',#631);
#168=VERTEX_POINT('',#635);
#169=VERTEX_POINT('',#638);
#170=VERTEX_POINT('',#642);
#171=VERTEX_POINT('',#645);
#172=VERTEX_POINT('',#649);
#173=VERTEX_POINT('',#651);
#174=VERTEX_POINT('',#655);
#175=VERTEX_POINT('',#658);
#176=VERTEX_POINT('',#661);
#177=VERTEX_POINT('',#664);
#178=VERTEX_POINT('',#667);
#179=VERTEX_POINT('',#670);
#180=CIRCLE('',#389,5.5);
#181=CIRCLE('',#390,6.);
#182=CIRCLE('',#392,3.2);
#183=CIRCLE('',#394,13.5);
#184=CIRCLE('',#395,3.);
#185=CIRCLE('',#396,3.);
#186=CIRCLE('',#397,3.);
#187=CIRCLE('',#398,3.);
#188=CIRCLE('',#399,3.20000000000001);
#189=CIRCLE('',#401,14.);
#190=CIRCLE('',#403,14.);
#191=CIRCLE('',#405,13.5);
#192=CIRCLE('',#407,6.);
#193=CIRCLE('',#408,1.75000000000006);
#194=CIRCLE('',#409,1.75000000000006);
#195=CIRCLE('',#410,1.75000000000006);
#196=CIRCLE('',#411,1.75000000000006);
#197=CIRCLE('',#414,1.75000000000006);
#198=CIRCLE('',#416,3.);
#199=CIRCLE('',#419,1.75000000000006);
#200=CIRCLE('',#421,3.);
#201=CIRCLE('',#424,1.75000000000006);
#202=CIRCLE('',#426,3.);
#203=CIRCLE('',#429,1.75000000000006);
#204=CIRCLE('',#431,3.);
#205=CIRCLE('',#434,3.20000000000001);
#206=CIRCLE('',#435,3.4);
#207=CIRCLE('',#438,3.4);
#208=CIRCLE('',#440,3.);
#209=CIRCLE('',#442,3.);
#210=CIRCLE('',#444,3.2);
#211=CIRCLE('',#446,3.4);
#212=CIRCLE('',#448,3.4);
#213=EDGE_LOOP('',(#48));
#214=EDGE_LOOP('',(#49));
#215=EDGE_LOOP('',(#50));
#216=EDGE_LOOP('',(#51));
#217=EDGE_LOOP('',(#52));
#218=EDGE_LOOP('',(#53));
#219=EDGE_LOOP('',(#54));
#220=EDGE_LOOP('',(#55));
#221=EDGE_LOOP('',(#56));
#222=EDGE_LOOP('',(#57));
#223=EDGE_LOOP('',(#58));
#224=EDGE_LOOP('',(#59));
#225=EDGE_LOOP('',(#60));
#226=EDGE_LOOP('',(#61));
#227=EDGE_LOOP('',(#62));
#228=EDGE_LOOP('',(#63));
#229=EDGE_LOOP('',(#64));
#230=EDGE_LOOP('',(#65));
#231=EDGE_LOOP('',(#66));
#232=EDGE_LOOP('',(#67));
#233=EDGE_LOOP('',(#68));
#234=EDGE_LOOP('',(#69));
#235=EDGE_LOOP('',(#70));
#236=EDGE_LOOP('',(#71));
#237=EDGE_LOOP('',(#72));
#238=EDGE_LOOP('',(#73));
#239=EDGE_LOOP('',(#74));
#240=EDGE_LOOP('',(#75));
#241=EDGE_LOOP('',(#76));
#242=EDGE_LOOP('',(#77));
#243=EDGE_LOOP('',(#78));
#244=EDGE_LOOP('',(#79));
#245=EDGE_LOOP('',(#80));
#246=EDGE_LOOP('',(#81));
#247=EDGE_LOOP('',(#82));
#248=EDGE_LOOP('',(#83));
#249=EDGE_LOOP('',(#84));
#250=EDGE_LOOP('',(#85));
#251=EDGE_LOOP('',(#86));
#252=EDGE_LOOP('',(#87));
#253=EDGE_LOOP('',(#88));
#254=EDGE_LOOP('',(#89));
#255=EDGE_LOOP('',(#90));
#256=EDGE_LOOP('',(#91));
#257=EDGE_LOOP('',(#92));
#258=EDGE_LOOP('',(#93));
#259=EDGE_LOOP('',(#94));
#260=EDGE_LOOP('',(#95));
#261=EDGE_LOOP('',(#96));
#262=EDGE_LOOP('',(#97));
#263=EDGE_LOOP('',(#98));
#264=EDGE_LOOP('',(#99));
#265=EDGE_LOOP('',(#100));
#266=EDGE_LOOP('',(#101));
#267=EDGE_LOOP('',(#102));
#268=EDGE_LOOP('',(#103));
#269=EDGE_LOOP('',(#104));
#270=EDGE_LOOP('',(#105));
#271=EDGE_LOOP('',(#106));
#272=EDGE_LOOP('',(#107));
#273=EDGE_LOOP('',(#108));
#274=EDGE_LOOP('',(#109));
#275=EDGE_LOOP('',(#110));
#276=EDGE_LOOP('',(#111));
#277=EDGE_LOOP('',(#112));
#278=EDGE_LOOP('',(#113));
#279=FACE_BOUND('',#213,.T.);
#280=FACE_BOUND('',#214,.T.);
#281=FACE_BOUND('',#215,.T.);
#282=FACE_BOUND('',#216,.T.);
#283=FACE_BOUND('',#217,.T.);
#284=FACE_BOUND('',#218,.T.);
#285=FACE_BOUND('',#219,.T.);
#286=FACE_BOUND('',#220,.T.);
#287=FACE_BOUND('',#221,.T.);
#288=FACE_BOUND('',#222,.T.);
#289=FACE_BOUND('',#223,.T.);
#290=FACE_BOUND('',#224,.T.);
#291=FACE_BOUND('',#225,.T.);
#292=FACE_BOUND('',#226,.T.);
#293=FACE_BOUND('',#227,.T.);
#294=FACE_BOUND('',#228,.T.);
#295=FACE_BOUND('',#229,.T.);
#296=FACE_BOUND('',#230,.T.);
#297=FACE_BOUND('',#231,.T.);
#298=FACE_BOUND('',#232,.T.);
#299=FACE_BOUND('',#233,.T.);
#300=FACE_BOUND('',#234,.T.);
#301=FACE_BOUND('',#235,.T.);
#302=FACE_BOUND('',#236,.T.);
#303=FACE_BOUND('',#237,.T.);
#304=FACE_BOUND('',#238,.T.);
#305=FACE_BOUND('',#239,.T.);
#306=FACE_BOUND('',#240,.T.);
#307=FACE_BOUND('',#241,.T.);
#308=FACE_BOUND('',#242,.T.);
#309=FACE_BOUND('',#243,.T.);
#310=FACE_BOUND('',#244,.T.);
#311=FACE_BOUND('',#245,.T.);
#312=FACE_BOUND('',#246,.T.);
#313=FACE_BOUND('',#247,.T.);
#314=FACE_BOUND('',#248,.T.);
#315=FACE_BOUND('',#249,.T.);
#316=FACE_BOUND('',#250,.T.);
#317=FACE_BOUND('',#251,.T.);
#318=FACE_BOUND('',#252,.T.);
#319=FACE_BOUND('',#253,.T.);
#320=FACE_BOUND('',#254,.T.);
#321=FACE_BOUND('',#255,.T.);
#322=FACE_BOUND('',#256,.T.);
#323=FACE_BOUND('',#257,.T.);
#324=FACE_BOUND('',#258,.T.);
#325=FACE_BOUND('',#259,.T.);
#326=FACE_BOUND('',#260,.T.);
#327=FACE_BOUND('',#261,.T.);
#328=FACE_BOUND('',#262,.T.);
#329=FACE_BOUND('',#263,.T.);
#330=FACE_BOUND('',#264,.T.);
#331=FACE_BOUND('',#265,.T.);
#332=FACE_BOUND('',#266,.T.);
#333=FACE_BOUND('',#267,.T.);
#334=FACE_BOUND('',#268,.T.);
#335=FACE_BOUND('',#269,.T.);
#336=FACE_BOUND('',#270,.T.);
#337=FACE_BOUND('',#271,.T.);
#338=FACE_BOUND('',#272,.T.);
#339=FACE_BOUND('',#273,.T.);
#340=FACE_BOUND('',#274,.T.);
#341=FACE_BOUND('',#275,.T.);
#342=FACE_BOUND('',#276,.T.);
#343=FACE_BOUND('',#277,.T.);
#344=FACE_BOUND('',#278,.T.);
#345=TOROIDAL_SURFACE('',#388,5.5,0.5);
#346=ADVANCED_FACE('',(#279,#280),#345,.T.);
#347=ADVANCED_FACE('',(#281,#282),#37,.T.);
#348=ADVANCED_FACE('',(#283,#284,#285,#286,#287,#288),#38,.T.);
#349=ADVANCED_FACE('',(#289,#290),#35,.T.);
#350=ADVANCED_FACE('',(#291,#292),#20,.T.);
#351=ADVANCED_FACE('',(#293,#294),#36,.T.);
#352=ADVANCED_FACE('',(#295,#296,#297,#298,#299,#300),#39,.T.);
#353=ADVANCED_FACE('',(#301,#302),#21,.T.);
#354=ADVANCED_FACE('',(#303,#304),#22,.F.);
#355=ADVANCED_FACE('',(#305,#306),#40,.T.);
#356=ADVANCED_FACE('',(#307,#308),#23,.F.);
#357=ADVANCED_FACE('',(#309,#310),#24,.F.);
#358=ADVANCED_FACE('',(#311,#312),#41,.T.);
#359=ADVANCED_FACE('',(#313,#314),#25,.F.);
#360=ADVANCED_FACE('',(#315,#316),#26,.F.);
#361=ADVANCED_FACE('',(#317,#318),#42,.T.);
#362=ADVANCED_FACE('',(#319,#320),#27,.F.);
#363=ADVANCED_FACE('',(#321,#322),#28,.F.);
#364=ADVANCED_FACE('',(#323,#324),#43,.T.);
#365=ADVANCED_FACE('',(#325,#326),#29,.F.);
#366=ADVANCED_FACE('',(#327,#328),#44,.T.);
#367=ADVANCED_FACE('',(#329,#330),#30,.F.);
#368=ADVANCED_FACE('',(#331,#332),#31,.F.);
#369=ADVANCED_FACE('',(#333,#334),#45,.T.);
#370=ADVANCED_FACE('',(#335,#336),#32,.F.);
#371=ADVANCED_FACE('',(#337,#338),#33,.F.);
#372=ADVANCED_FACE('',(#339,#340),#46,.T.);
#373=ADVANCED_FACE('',(#341,#342),#34,.F.);
#374=ADVANCED_FACE('',(#343,#344),#47,.T.);
#375=CLOSED_SHELL('',(#346,#347,#348,#349,#350,#351,#352,#353,#354,#355,
#356,#357,#358,#359,#360,#361,#362,#363,#364,#365,#366,#367,#368,#369,#370,
#371,#372,#373,#374));
#376=STYLED_ITEM('',(#377),#384);
#377=PRESENTATION_STYLE_ASSIGNMENT((#378));
#378=SURFACE_STYLE_USAGE(.BOTH.,#379);
#379=SURFACE_SIDE_STYLE('',(#380));
#380=SURFACE_STYLE_FILL_AREA(#381);
#381=FILL_AREA_STYLE('',(#382));
#382=FILL_AREA_STYLE_COLOUR('',#383);
#383=COLOUR_RGB('',0.689999997615814,0.689999997615814,0.689999997615814);
#384=MANIFOLD_SOLID_BREP('LMTF6LUU',#375);
#385=SHAPE_DEFINITION_REPRESENTATION(#678,#386);
#386=SHAPE_REPRESENTATION('LMTF6LUU',(#387),#673);
#387=AXIS2_PLACEMENT_3D('',#576,#450,#451);
#388=AXIS2_PLACEMENT_3D('',#577,#452,#453);
#389=AXIS2_PLACEMENT_3D('',#578,#454,#455);
#390=AXIS2_PLACEMENT_3D('',#580,#456,#457);
#391=AXIS2_PLACEMENT_3D('',#582,#458,#459);
#392=AXIS2_PLACEMENT_3D('',#583,#460,#461);
#393=AXIS2_PLACEMENT_3D('',#585,#462,#463);
#394=AXIS2_PLACEMENT_3D('',#586,#464,#465);
#395=AXIS2_PLACEMENT_3D('',#588,#466,#467);
#396=AXIS2_PLACEMENT_3D('',#590,#468,#469);
#397=AXIS2_PLACEMENT_3D('',#592,#470,#471);
#398=AXIS2_PLACEMENT_3D('',#594,#472,#473);
#399=AXIS2_PLACEMENT_3D('',#596,#474,#475);
#400=AXIS2_PLACEMENT_3D('',#598,#476,#477);
#401=AXIS2_PLACEMENT_3D('',#599,#478,#479);
#402=AXIS2_PLACEMENT_3D('',#601,#480,#481);
#403=AXIS2_PLACEMENT_3D('',#602,#482,#483);
#404=AXIS2_PLACEMENT_3D('',#604,#484,#485);
#405=AXIS2_PLACEMENT_3D('',#605,#486,#487);
#406=AXIS2_PLACEMENT_3D('',#607,#488,#489);
#407=AXIS2_PLACEMENT_3D('',#608,#490,#491);
#408=AXIS2_PLACEMENT_3D('',#610,#492,#493);
#409=AXIS2_PLACEMENT_3D('',#612,#494,#495);
#410=AXIS2_PLACEMENT_3D('',#614,#496,#497);
#411=AXIS2_PLACEMENT_3D('',#616,#498,#499);
#412=AXIS2_PLACEMENT_3D('',#618,#500,#501);
#413=AXIS2_PLACEMENT_3D('',#619,#502,#503);
#414=AXIS2_PLACEMENT_3D('',#620,#504,#505);
#415=AXIS2_PLACEMENT_3D('',#622,#506,#507);
#416=AXIS2_PLACEMENT_3D('',#623,#508,#509);
#417=AXIS2_PLACEMENT_3D('',#625,#510,#511);
#418=AXIS2_PLACEMENT_3D('',#626,#512,#513);
#419=AXIS2_PLACEMENT_3D('',#627,#514,#515);
#420=AXIS2_PLACEMENT_3D('',#629,#516,#517);
#421=AXIS2_PLACEMENT_3D('',#630,#518,#519);
#422=AXIS2_PLACEMENT_3D('',#632,#520,#521);
#423=AXIS2_PLACEMENT_3D('',#633,#522,#523);
#424=AXIS2_PLACEMENT_3D('',#634,#524,#525);
#425=AXIS2_PLACEMENT_3D('',#636,#526,#527);
#426=AXIS2_PLACEMENT_3D('',#637,#528,#529);
#427=AXIS2_PLACEMENT_3D('',#639,#530,#531);
#428=AXIS2_PLACEMENT_3D('',#640,#532,#533);
#429=AXIS2_PLACEMENT_3D('',#641,#534,#535);
#430=AXIS2_PLACEMENT_3D('',#643,#536,#537);
#431=AXIS2_PLACEMENT_3D('',#644,#538,#539);
#432=AXIS2_PLACEMENT_3D('',#646,#540,#541);
#433=AXIS2_PLACEMENT_3D('',#647,#542,#543);
#434=AXIS2_PLACEMENT_3D('',#648,#544,#545);
#435=AXIS2_PLACEMENT_3D('',#650,#546,#547);
#436=AXIS2_PLACEMENT_3D('',#652,#548,#549);
#437=AXIS2_PLACEMENT_3D('',#653,#550,#551);
#438=AXIS2_PLACEMENT_3D('',#654,#552,#553);
#439=AXIS2_PLACEMENT_3D('',#656,#554,#555);
#440=AXIS2_PLACEMENT_3D('',#657,#556,#557);
#441=AXIS2_PLACEMENT_3D('',#659,#558,#559);
#442=AXIS2_PLACEMENT_3D('',#660,#560,#561);
#443=AXIS2_PLACEMENT_3D('',#662,#562,#563);
#444=AXIS2_PLACEMENT_3D('',#663,#564,#565);
#445=AXIS2_PLACEMENT_3D('',#665,#566,#567);
#446=AXIS2_PLACEMENT_3D('',#666,#568,#569);
#447=AXIS2_PLACEMENT_3D('',#668,#570,#571);
#448=AXIS2_PLACEMENT_3D('',#669,#572,#573);
#449=AXIS2_PLACEMENT_3D('',#671,#574,#575);
#450=DIRECTION('',(0.,0.,1.));
#451=DIRECTION('',(1.,0.,0.));
#452=DIRECTION('',(1.,0.,0.));
#453=DIRECTION('',(0.,0.,-1.));
#454=DIRECTION('',(1.,0.,0.));
#455=DIRECTION('',(0.,0.,-1.));
#456=DIRECTION('',(1.,0.,0.));
#457=DIRECTION('',(0.,0.,-1.));
#458=DIRECTION('',(-1.,0.,0.));
#459=DIRECTION('',(0.,0.,1.));
#460=DIRECTION('',(1.,0.,0.));
#461=DIRECTION('',(0.,0.,-1.));
#462=DIRECTION('',(1.,0.,0.));
#463=DIRECTION('',(0.,0.,-1.));
#464=DIRECTION('',(1.,0.,0.));
#465=DIRECTION('',(0.,0.,-1.));
#466=DIRECTION('',(1.,0.,0.));
#467=DIRECTION('',(0.,0.,-1.));
#468=DIRECTION('',(1.,0.,0.));
#469=DIRECTION('',(0.,0.,-1.));
#470=DIRECTION('',(1.,0.,0.));
#471=DIRECTION('',(0.,0.,-1.));
#472=DIRECTION('',(1.,0.,0.));
#473=DIRECTION('',(0.,0.,-1.));
#474=DIRECTION('',(1.,0.,0.));
#475=DIRECTION('',(0.,0.,-1.));
#476=DIRECTION('',(-1.,0.,0.));
#477=DIRECTION('',(0.,0.,1.));
#478=DIRECTION('',(1.,0.,0.));
#479=DIRECTION('',(0.,0.,-1.));
#480=DIRECTION('',(1.,0.,0.));
#481=DIRECTION('',(0.,0.,-1.));
#482=DIRECTION('',(1.,0.,0.));
#483=DIRECTION('',(0.,0.,-1.));
#484=DIRECTION('',(1.,0.,0.));
#485=DIRECTION('',(0.,0.,-1.));
#486=DIRECTION('',(1.,0.,0.));
#487=DIRECTION('',(0.,0.,-1.));
#488=DIRECTION('',(-1.,0.,0.));
#489=DIRECTION('',(0.,0.,1.));
#490=DIRECTION('',(1.,0.,0.));
#491=DIRECTION('',(0.,0.,-1.));
#492=DIRECTION('',(-1.,0.,0.));
#493=DIRECTION('',(0.,0.,1.));
#494=DIRECTION('',(1.,0.,0.));
#495=DIRECTION('',(0.,0.,-1.));
#496=DIRECTION('',(1.,0.,0.));
#497=DIRECTION('',(0.,0.,-1.));
#498=DIRECTION('',(1.,0.,0.));
#499=DIRECTION('',(0.,0.,-1.));
#500=DIRECTION('',(1.,0.,0.));
#501=DIRECTION('',(0.,0.,-1.));
#502=DIRECTION('',(1.,0.,0.));
#503=DIRECTION('',(0.,0.,-1.));
#504=DIRECTION('',(1.,0.,0.));
#505=DIRECTION('',(0.,0.,-1.));
#506=DIRECTION('',(1.,0.,0.));
#507=DIRECTION('',(0.,0.,-1.));
#508=DIRECTION('',(1.,0.,0.));
#509=DIRECTION('',(0.,0.,-1.));
#510=DIRECTION('',(1.,0.,0.));
#511=DIRECTION('',(0.,0.,-1.));
#512=DIRECTION('',(1.,0.,0.));
#513=DIRECTION('',(0.,0.,-1.));
#514=DIRECTION('',(1.,0.,0.));
#515=DIRECTION('',(0.,0.,-1.));
#516=DIRECTION('',(1.,0.,0.));
#517=DIRECTION('',(0.,0.,-1.));
#518=DIRECTION('',(1.,0.,0.));
#519=DIRECTION('',(0.,0.,-1.));
#520=DIRECTION('',(1.,0.,0.));
#521=DIRECTION('',(0.,0.,-1.));
#522=DIRECTION('',(1.,0.,0.));
#523=DIRECTION('',(0.,0.,-1.));
#524=DIRECTION('',(1.,0.,0.));
#525=DIRECTION('',(0.,0.,-1.));
#526=DIRECTION('',(1.,0.,0.));
#527=DIRECTION('',(0.,0.,-1.));
#528=DIRECTION('',(1.,0.,0.));
#529=DIRECTION('',(0.,0.,-1.));
#530=DIRECTION('',(1.,0.,0.));
#531=DIRECTION('',(0.,0.,-1.));
#532=DIRECTION('',(1.,0.,0.));
#533=DIRECTION('',(0.,0.,-1.));
#534=DIRECTION('',(1.,0.,0.));
#535=DIRECTION('',(0.,0.,-1.));
#536=DIRECTION('',(1.,0.,0.));
#537=DIRECTION('',(0.,0.,-1.));
#538=DIRECTION('',(1.,0.,0.));
#539=DIRECTION('',(0.,0.,-1.));
#540=DIRECTION('',(1.,0.,0.));
#541=DIRECTION('',(0.,0.,-1.));
#542=DIRECTION('',(-1.,0.,0.));
#543=DIRECTION('',(0.,0.,1.));
#544=DIRECTION('',(1.,0.,0.));
#545=DIRECTION('',(0.,0.,-1.));
#546=DIRECTION('',(1.,0.,0.));
#547=DIRECTION('',(0.,0.,-1.));
#548=DIRECTION('',(1.,0.,0.));
#549=DIRECTION('',(0.,0.,-1.));
#550=DIRECTION('',(1.,0.,0.));
#551=DIRECTION('',(0.,0.,-1.));
#552=DIRECTION('',(1.,0.,0.));
#553=DIRECTION('',(0.,0.,-1.));
#554=DIRECTION('',(1.,0.,0.));
#555=DIRECTION('',(0.,0.,-1.));
#556=DIRECTION('',(1.,0.,0.));
#557=DIRECTION('',(0.,0.,-1.));
#558=DIRECTION('',(1.,0.,0.));
#559=DIRECTION('',(0.,0.,-1.));
#560=DIRECTION('',(1.,0.,0.));
#561=DIRECTION('',(0.,0.,-1.));
#562=DIRECTION('',(1.,0.,0.));
#563=DIRECTION('',(0.,0.,-1.));
#564=DIRECTION('',(1.,0.,0.));
#565=DIRECTION('',(0.,0.,-1.));
#566=DIRECTION('',(1.,0.,0.));
#567=DIRECTION('',(0.,0.,-1.));
#568=DIRECTION('',(1.,0.,0.));
#569=DIRECTION('',(0.,0.,-1.));
#570=DIRECTION('',(1.,0.,0.));
#571=DIRECTION('',(0.,0.,-1.));
#572=DIRECTION('',(1.,0.,0.));
#573=DIRECTION('',(0.,0.,-1.));
#574=DIRECTION('',(-1.,0.,0.));
#575=DIRECTION('',(0.,0.,1.));
#576=CARTESIAN_POINT('',(0.,0.,0.));
#577=CARTESIAN_POINT('',(-28.5,0.,0.));
#578=CARTESIAN_POINT('',(-29.,0.,0.));
#579=CARTESIAN_POINT('',(-29.,0.,-5.5));
#580=CARTESIAN_POINT('',(-28.5,0.,0.));
#581=CARTESIAN_POINT('',(-28.5,0.,-6.));
#582=CARTESIAN_POINT('',(-29.,5.5,0.));
#583=CARTESIAN_POINT('',(-29.,0.,0.));
#584=CARTESIAN_POINT('',(-29.,0.,-3.2));
#585=CARTESIAN_POINT('',(-1.73472347597681E-15,3.,0.));
#586=CARTESIAN_POINT('',(0.,0.,0.));
#587=CARTESIAN_POINT('',(0.,0.,-13.5));
#588=CARTESIAN_POINT('',(0.,10.,0.));
#589=CARTESIAN_POINT('',(0.,10.,-3.));
#590=CARTESIAN_POINT('',(0.,0.,10.));
#591=CARTESIAN_POINT('',(0.,0.,7.));
#592=CARTESIAN_POINT('',(0.,-10.,0.));
#593=CARTESIAN_POINT('',(0.,-10.,-3.));
#594=CARTESIAN_POINT('',(0.,0.,-10.));
#595=CARTESIAN_POINT('',(0.,0.,-13.));
#596=CARTESIAN_POINT('',(0.,0.,0.));
#597=CARTESIAN_POINT('',(0.,0.,-3.20000000000001));
#598=CARTESIAN_POINT('',(0.,0.,0.));
#599=CARTESIAN_POINT('',(-0.499999999999945,0.,0.));
#600=CARTESIAN_POINT('',(-0.499999999999945,0.,-14.));
#601=CARTESIAN_POINT('',(500.,0.,0.));
#602=CARTESIAN_POINT('',(-4.49999999999995,0.,0.));
#603=CARTESIAN_POINT('',(-4.49999999999995,0.,-14.));
#604=CARTESIAN_POINT('',(-4.49999999999995,0.,0.));
#605=CARTESIAN_POINT('',(-5.,0.,0.));
#606=CARTESIAN_POINT('',(-5.,0.,-13.5));
#607=CARTESIAN_POINT('',(-5.,13.5,0.));
#608=CARTESIAN_POINT('',(-5.,0.,0.));
#609=CARTESIAN_POINT('',(-5.,0.,-6.));
#610=CARTESIAN_POINT('',(-5.,10.,0.));
#611=CARTESIAN_POINT('',(-5.,10.,1.75000000000006));
#612=CARTESIAN_POINT('',(-5.,0.,10.));
#613=CARTESIAN_POINT('',(-5.,0.,8.24999999999994));
#614=CARTESIAN_POINT('',(-5.,-10.,0.));
#615=CARTESIAN_POINT('',(-5.,-10.,-1.75000000000006));
#616=CARTESIAN_POINT('',(-5.,0.,-10.));
#617=CARTESIAN_POINT('',(-5.,0.,-11.7500000000001));
#618=CARTESIAN_POINT('',(500.,0.,0.));
#619=CARTESIAN_POINT('',(500.,10.,0.));
#620=CARTESIAN_POINT('',(-3.09999999999999,10.,0.));
#621=CARTESIAN_POINT('',(-3.09999999999999,10.,-1.75000000000006));
#622=CARTESIAN_POINT('',(-3.1,11.7500000000001,0.));
#623=CARTESIAN_POINT('',(-3.09999999999999,10.,0.));
#624=CARTESIAN_POINT('',(-3.09999999999999,10.,-3.));
#625=CARTESIAN_POINT('',(500.,10.,0.));
#626=CARTESIAN_POINT('',(500.,0.,-10.));
#627=CARTESIAN_POINT('',(-3.09999999999999,0.,-10.));
#628=CARTESIAN_POINT('',(-3.09999999999999,0.,-11.7500000000001));
#629=CARTESIAN_POINT('',(-3.1,1.75000000000006,-10.));
#630=CARTESIAN_POINT('',(-3.09999999999999,0.,-10.));
#631=CARTESIAN_POINT('',(-3.09999999999999,0.,-13.));
#632=CARTESIAN_POINT('',(500.,0.,-10.));
#633=CARTESIAN_POINT('',(500.,-10.,0.));
#634=CARTESIAN_POINT('',(-3.09999999999999,-10.,0.));
#635=CARTESIAN_POINT('',(-3.09999999999999,-10.,-1.75000000000006));
#636=CARTESIAN_POINT('',(-3.1,-8.24999999999994,0.));
#637=CARTESIAN_POINT('',(-3.09999999999999,-10.,0.));
#638=CARTESIAN_POINT('',(-3.09999999999999,-10.,-3.));
#639=CARTESIAN_POINT('',(500.,-10.,0.));
#640=CARTESIAN_POINT('',(500.,0.,10.));
#641=CARTESIAN_POINT('',(-3.09999999999999,0.,10.));
#642=CARTESIAN_POINT('',(-3.09999999999999,0.,8.24999999999994));
#643=CARTESIAN_POINT('',(-3.1,1.75000000000006,10.));
#644=CARTESIAN_POINT('',(-3.09999999999999,0.,10.));
#645=CARTESIAN_POINT('',(-3.09999999999999,0.,7.));
#646=CARTESIAN_POINT('',(500.,0.,10.));
#647=CARTESIAN_POINT('',(-0.5,3.4,0.));
#648=CARTESIAN_POINT('',(-0.499999999999945,0.,0.));
#649=CARTESIAN_POINT('',(-0.499999999999945,0.,-3.20000000000001));
#650=CARTESIAN_POINT('',(-0.499999999999945,0.,0.));
#651=CARTESIAN_POINT('',(-0.499999999999945,0.,-3.4));
#652=CARTESIAN_POINT('',(500.,0.,0.));
#653=CARTESIAN_POINT('',(500.,0.,0.));
#654=CARTESIAN_POINT('',(-0.800000000000023,0.,0.));
#655=CARTESIAN_POINT('',(-0.800000000000023,0.,-3.4));
#656=CARTESIAN_POINT('',(-0.800000000000003,3.,0.));
#657=CARTESIAN_POINT('',(-0.800000000000023,0.,0.));
#658=CARTESIAN_POINT('',(-0.800000000000023,0.,-3.));
#659=CARTESIAN_POINT('',(500.,0.,0.));
#660=CARTESIAN_POINT('',(-28.2,0.,0.));
#661=CARTESIAN_POINT('',(-28.2,0.,-3.));
#662=CARTESIAN_POINT('',(500.,0.,0.));
#663=CARTESIAN_POINT('',(-28.5,0.,0.));
#664=CARTESIAN_POINT('',(-28.5,0.,-3.2));
#665=CARTESIAN_POINT('',(-28.5,3.2,0.));
#666=CARTESIAN_POINT('',(-28.5,0.,0.));
#667=CARTESIAN_POINT('',(-28.5,0.,-3.4));
#668=CARTESIAN_POINT('',(500.,0.,0.));
#669=CARTESIAN_POINT('',(-28.2,0.,0.));
#670=CARTESIAN_POINT('',(-28.2,0.,-3.4));
#671=CARTESIAN_POINT('',(-28.2,3.4,0.));
#672=MECHANICAL_DESIGN_GEOMETRIC_PRESENTATION_REPRESENTATION('',(#376),
#673);
#673=(
GEOMETRIC_REPRESENTATION_CONTEXT(3)
GLOBAL_UNCERTAINTY_ASSIGNED_CONTEXT((#674))
GLOBAL_UNIT_ASSIGNED_CONTEXT((#677,#676,#675))
REPRESENTATION_CONTEXT('LMTF6LUU','TOP_LEVEL_ASSEMBLY_PART')
);
#674=UNCERTAINTY_MEASURE_WITH_UNIT(LENGTH_MEASURE(0.005),#677,
'DISTANCE_ACCURACY_VALUE','Maximum Tolerance applied to model');
#675=(
NAMED_UNIT(*)
SI_UNIT($,.STERADIAN.)
SOLID_ANGLE_UNIT()
);
#676=(
NAMED_UNIT(*)
PLANE_ANGLE_UNIT()
SI_UNIT($,.RADIAN.)
);
#677=(
LENGTH_UNIT()
NAMED_UNIT(*)
SI_UNIT(.MILLI.,.METRE.)
);
#678=PRODUCT_DEFINITION_SHAPE('','',#679);
#679=PRODUCT_DEFINITION('','',#681,#680);
#680=DESIGN_CONTEXT('',#687,'design');
#681=PRODUCT_DEFINITION_FORMATION_WITH_SPECIFIED_SOURCE('','',#683,
 .NOT_KNOWN.);
#682=PRODUCT_RELATED_PRODUCT_CATEGORY('','',(#683));
#683=PRODUCT('LMTF6LUU','LMTF6LUU','LMTF6LUU',(#685));
#684=PRODUCT_CATEGORY('','');
#685=MECHANICAL_CONTEXT('',#687,'mechanical');
#686=APPLICATION_PROTOCOL_DEFINITION('international standard',
'config_control_design',2010,#687);
#687=APPLICATION_CONTEXT(
'configuration controlled 3D designs of mechanical parts and assemblie
s');
ENDSEC;
END-ISO-10303-21;
